ISO-10303-21;
HEADER;
FILE_DESCRIPTION (( 'STEP AP203' ),
    '1' );
FILE_NAME ('End Cap SDR11_001 117 0140 0140.step',
    '2019-12-16T11:41:09',
    ( '' ),
    ( '' ),
    'SwSTEP 2.0',
    'SolidWorks 2019',
    '' );
FILE_SCHEMA (( 'CONFIG_CONTROL_DESIGN' ));
ENDSEC;

DATA;
#1 = DIRECTION ( 'NONE',  ( 0.0000000000000000000, 0.0000000000000000000, 1.000000000000000000 ) ) ;
#2 = DIRECTION ( 'NONE',  ( 0.0000000000000000000, 0.0000000000000000000, -1.000000000000000000 ) ) ;
#3 = CARTESIAN_POINT ( 'NONE',  ( 0.0000000000000000000, 101.0958798653390005, 0.0000000000000000000 ) ) ;
#4 = APPROVAL ( #263, 'BELÝRTÝLMEMÝÞ' ) ;
#5 = DATE_AND_TIME ( #247, #221 ) ;
#6 = DATE_AND_TIME ( #248, #162 ) ;
#7 = AXIS2_PLACEMENT_3D ( 'NONE', #246, #1, #123 ) ;
#8 = APPROVAL_PERSON_ORGANIZATION ( #186, #4, #31 ) ;
#9 = PERSON_AND_ORGANIZATION ( #299, #179 ) ;
#10 = DIRECTION ( 'NONE',  ( -1.000000000000000000, 0.0000000000000000000, 0.0000000000000000000 ) ) ;
#11 =( GEOMETRIC_REPRESENTATION_CONTEXT ( 3 ) GLOBAL_UNCERTAINTY_ASSIGNED_CONTEXT ( ( #285 ) ) GLOBAL_UNIT_ASSIGNED_CONTEXT ( ( #262, #245, #231 ) ) REPRESENTATION_CONTEXT ( 'NONE', 'WORKASPACE' ) );
#12 = CARTESIAN_POINT ( 'NONE',  ( 0.0000000000000000000, -96.19510076637990892, 1.946292200326171118 ) ) ;
#13 = CARTESIAN_POINT ( 'NONE',  ( -2.160526485124692509E-14, 101.0958798653390005, 0.0000000000000000000 ) ) ;
#14 = DIRECTION ( 'NONE',  ( -0.0000000000000000000, -1.000000000000000000, -0.0000000000000000000 ) ) ;
#15 = DIRECTION ( 'NONE',  ( 0.0000000000000000000, 0.0000000000000000000, -1.000000000000000000 ) ) ;
#16 = CARTESIAN_POINT ( 'NONE',  ( 0.0000000000000000000, 0.0000000000000000000, -70.00000000000000000 ) ) ;
#17 = DIRECTION ( 'NONE',  ( -0.0000000000000000000, -1.000000000000000000, -0.0000000000000000000 ) ) ;
#18 = CARTESIAN_POINT ( 'NONE',  ( 0.0000000000000000000, 0.0000000000000000000, 0.0000000000000000000 ) ) ;
#19 = ADVANCED_FACE ( 'NONE', ( #24 ), #22, .F. ) ;
#20 = CARTESIAN_POINT ( 'NONE',  ( 0.0000000000000000000, 0.0000000000000000000, 0.0000000000000000000 ) ) ;
#21 = DIRECTION ( 'NONE',  ( 1.000000000000000000, 0.0000000000000000000, -1.224646799147353207E-16 ) ) ;
#22 = CYLINDRICAL_SURFACE ( 'NONE', #216, 57.30000000000001137 ) ;
#23 = DIRECTION ( 'NONE',  ( -0.0000000000000000000, -1.000000000000000000, -0.0000000000000000000 ) ) ;
#24 = FACE_OUTER_BOUND ( 'NONE', #185, .T. ) ;
#25 = FACE_OUTER_BOUND ( 'NONE', #94, .T. ) ;
#26 = VERTEX_POINT ( 'NONE', #13 ) ;
#27 = MANIFOLD_SOLID_BREP ( 'Döndür1', #220 ) ;
#28 = EDGE_LOOP ( 'NONE', ( #121, #126, #141 ) ) ;
#29 = EDGE_CURVE ( 'NONE', #167, #172, #217, .T. ) ;
#30 = VERTEX_POINT ( 'NONE', #58 ) ;
#31 = APPROVAL_ROLE ( '' ) ;
#32 = APPROVAL_ROLE ( '' ) ;
#33 = CALENDAR_DATE ( 2019, 16, 12 ) ;
#34 = LOCAL_TIME ( 14, 41, 9.000000000000000000, #265 ) ;
#35 = PRODUCT ( 'End Cap SDR11_001 117 0140 0140', 'End Cap SDR11_001 117 0140 0140', '', ( #232 ) ) ;
#36 = CC_DESIGN_PERSON_AND_ORGANIZATION_ASSIGNMENT ( #95, #214, ( #102 ) ) ;
#37 = ORIENTED_EDGE ( 'NONE', *, *, #54, .T. ) ;
#38 = DIRECTION ( 'NONE',  ( 0.0000000000000000000, 0.0000000000000000000, -1.000000000000000000 ) ) ;
#39 = ORIENTED_EDGE ( 'NONE', *, *, #252, .F. ) ;
#40 = CARTESIAN_POINT ( 'NONE',  ( 0.0000000000000000000, 101.0958798653390005, -69.99999999999998579 ) ) ;
#41 = ORIENTED_EDGE ( 'NONE', *, *, #218, .F. ) ;
#42 = CARTESIAN_POINT ( 'NONE',  ( 0.0000000000000000000, -96.19510076637990892, 1.946292200326171118 ) ) ;
#43 = EDGE_CURVE ( 'NONE', #30, #174, #206, .T. ) ;
#44 = ORIENTED_EDGE ( 'NONE', *, *, #218, .T. ) ;
#45 = CARTESIAN_POINT ( 'NONE',  ( 0.0000000000000000000, 0.0000000000000000000, -57.30000000000001137 ) ) ;
#46 = FACE_OUTER_BOUND ( 'NONE', #176, .T. ) ;
#47 = AXIS2_PLACEMENT_3D ( 'NONE', #208, #279, #55 ) ;
#48 = TOROIDAL_SURFACE ( 'NONE', #47, -1.946292200326171118, 209.9999999999999716 ) ;
#49 = ORIENTED_EDGE ( 'NONE', *, *, #225, .T. ) ;
#50 = CC_DESIGN_APPROVAL ( #4, ( #70 ) ) ;
#51 = CARTESIAN_POINT ( 'NONE',  ( 57.30000000000000426, 0.0000000000000000000, 0.0000000000000000000 ) ) ;
#52 = DIRECTION ( 'NONE',  ( -0.0000000000000000000, -1.000000000000000000, -0.0000000000000000000 ) ) ;
#53 = ORIENTED_EDGE ( 'NONE', *, *, #157, .T. ) ;
#54 = EDGE_CURVE ( 'NONE', #144, #167, #195, .T. ) ;
#55 = DIRECTION ( 'NONE',  ( 0.0000000000000000000, 0.0000000000000000000, -1.000000000000000000 ) ) ;
#56 = CARTESIAN_POINT ( 'NONE',  ( 0.0000000000000000000, 92.00000000000000000, 0.0000000000000000000 ) ) ;
#57 = ORIENTED_EDGE ( 'NONE', *, *, #251, .T. ) ;
#58 = CARTESIAN_POINT ( 'NONE',  ( 7.017226159114336138E-15, 92.00000000000000000, 57.30000000000002558 ) ) ;
#59 = ORIENTED_EDGE ( 'NONE', *, *, #164, .T. ) ;
#60 = AXIS2_PLACEMENT_3D ( 'NONE', #307, #118, #230 ) ;
#61 = TOROIDAL_SURFACE ( 'NONE', #60, -1.946292200326171118, 209.9999999999999716 ) ;
#62 = APPLICATION_PROTOCOL_DEFINITION ( 'international standard', 'config_control_design', 1994, #270 ) ;
#63 = DIRECTION ( 'NONE',  ( 0.0000000000000000000, 0.0000000000000000000, -1.000000000000000000 ) ) ;
#64 = ORIENTED_EDGE ( 'NONE', *, *, #203, .T. ) ;
#65 = DATE_TIME_ROLE ( 'creation_date' ) ;
#66 = PERSON_AND_ORGANIZATION ( #299, #179 ) ;
#67 = SHAPE_DEFINITION_REPRESENTATION ( #286, #260 ) ;
#68 = AXIS2_PLACEMENT_3D ( 'NONE', #116, #229, #293 ) ;
#69 = DIRECTION ( 'NONE',  ( -0.0000000000000000000, -1.000000000000000000, -0.0000000000000000000 ) ) ;
#70 = PRODUCT_DEFINITION ( 'BÝLÝNMEYEN', '', #102, #192 ) ;
#71 = AXIS2_PLACEMENT_3D ( 'NONE', #51, #181, #259 ) ;
#72 = AXIS2_PLACEMENT_3D ( 'NONE', #258, #23, #150 ) ;
#73 = DIRECTION ( 'NONE',  ( 0.0000000000000000000, 0.0000000000000000000, -1.000000000000000000 ) ) ;
#74 = ORIENTED_EDGE ( 'NONE', *, *, #269, .F. ) ;
#75 = LINE ( 'NONE', #198, #153 ) ;
#76 = ORIENTED_EDGE ( 'NONE', *, *, #89, .F. ) ;
#77 = DIRECTION ( 'NONE',  ( 0.0000000000000000000, 0.0000000000000000000, -1.000000000000000000 ) ) ;
#78 = ORIENTED_EDGE ( 'NONE', *, *, #157, .F. ) ;
#79 = DIRECTION ( 'NONE',  ( 1.000000000000000000, 0.0000000000000000000, -1.224646799147353207E-16 ) ) ;
#80 = ORIENTED_EDGE ( 'NONE', *, *, #108, .F. ) ;
#81 = DIRECTION ( 'NONE',  ( 0.0000000000000000000, 0.0000000000000000000, -1.000000000000000000 ) ) ;
#82 = ORIENTED_EDGE ( 'NONE', *, *, #122, .F. ) ;
#83 = FACE_OUTER_BOUND ( 'NONE', #183, .T. ) ;
#84 = VECTOR ( 'NONE', #276, 1000.000000000000000 ) ;
#85 = ORIENTED_EDGE ( 'NONE', *, *, #251, .F. ) ;
#86 = LOCAL_TIME ( 14, 41, 9.000000000000000000, #298 ) ;
#87 = ORIENTED_EDGE ( 'NONE', *, *, #89, .T. ) ;
#88 = ORIENTED_EDGE ( 'NONE', *, *, #122, .T. ) ;
#89 = EDGE_CURVE ( 'NONE', #188, #156, #193, .T. ) ;
#90 = ORIENTED_EDGE ( 'NONE', *, *, #43, .F. ) ;
#91 = AXIS2_PLACEMENT_3D ( 'NONE', #227, #292, #81 ) ;
#92 = TOROIDAL_SURFACE ( 'NONE', #91, -1.946292200326171118, 197.3005805666935260 ) ;
#93 = COORDINATED_UNIVERSAL_TIME_OFFSET ( 3, 0, .AHEAD. ) ;
#94 = EDGE_LOOP ( 'NONE', ( #39, #37, #149 ) ) ;
#95 = PERSON_AND_ORGANIZATION ( #299, #179 ) ;
#96 = CALENDAR_DATE ( 2019, 16, 12 ) ;
#97 = AXIS2_PLACEMENT_3D ( 'NONE', #256, #21, #145 ) ;
#98 = CIRCLE ( 'NONE', #97, 209.9999999999999716 ) ;
#99 = ADVANCED_FACE ( 'NONE', ( #301 ), #100, .F. ) ;
#100 = CYLINDRICAL_SURFACE ( 'NONE', #178, 57.30000000000001137 ) ;
#101 = VECTOR ( 'NONE', #175, 1000.000000000000000 ) ;
#102 = PRODUCT_DEFINITION_FORMATION_WITH_SPECIFIED_SOURCE ( 'HERHANGÝ', '', #35, .NOT_KNOWN. ) ;
#103 = ORIENTED_EDGE ( 'NONE', *, *, #164, .F. ) ;
#104 = DIRECTION ( 'NONE',  ( -0.0000000000000000000, -1.000000000000000000, -0.0000000000000000000 ) ) ;
#105 = ORIENTED_EDGE ( 'NONE', *, *, #225, .F. ) ;
#106 = CARTESIAN_POINT ( 'NONE',  ( 0.0000000000000000000, 101.0958798653390005, 0.0000000000000000000 ) ) ;
#107 = ORIENTED_EDGE ( 'NONE', *, *, #269, .T. ) ;
#108 = EDGE_CURVE ( 'NONE', #174, #30, #184, .T. ) ;
#109 = DIRECTION ( 'NONE',  ( -0.0000000000000000000, -1.000000000000000000, -0.0000000000000000000 ) ) ;
#110 = AXIS2_PLACEMENT_3D ( 'NONE', #291, #79, #201 ) ;
#111 = CIRCLE ( 'NONE', #110, 197.3005805666935260 ) ;
#112 = ORIENTED_EDGE ( 'NONE', *, *, #29, .T. ) ;
#113 = CC_DESIGN_PERSON_AND_ORGANIZATION_ASSIGNMENT ( #234, #297, ( #102 ) ) ;
#114 = LINE ( 'NONE', #202, #84 ) ;
#115 = ORIENTED_EDGE ( 'NONE', *, *, #29, .F. ) ;
#116 = CARTESIAN_POINT ( 'NONE',  ( 0.0000000000000000000, 0.0000000000000000000, 0.0000000000000000000 ) ) ;
#117 = ORIENTED_EDGE ( 'NONE', *, *, #252, .T. ) ;
#118 = DIRECTION ( 'NONE',  ( -0.0000000000000000000, -1.000000000000000000, -0.0000000000000000000 ) ) ;
#119 = AXIS2_PLACEMENT_3D ( 'NONE', #304, #109, #226 ) ;
#120 = ORIENTED_EDGE ( 'NONE', *, *, #54, .F. ) ;
#121 = ORIENTED_EDGE ( 'NONE', *, *, #211, .F. ) ;
#122 = EDGE_CURVE ( 'NONE', #30, #188, #168, .T. ) ;
#123 = DIRECTION ( 'NONE',  ( 1.000000000000000000, 0.0000000000000000000, 0.0000000000000000000 ) ) ;
#124 = EDGE_LOOP ( 'NONE', ( #90, #88, #87, #85 ) ) ;
#125 = APPROVAL_DATE_TIME ( #5, #4 ) ;
#126 = ORIENTED_EDGE ( 'NONE', *, *, #228, .T. ) ;
#127 = CIRCLE ( 'NONE', #119, 70.00000000000000000 ) ;
#128 = AXIS2_PLACEMENT_3D ( 'NONE', #18, #142, #241 ) ;
#129 = CIRCLE ( 'NONE', #128, 70.00000000000000000 ) ;
#130 = APPROVAL_DATE_TIME ( #6, #187 ) ;
#131 = APPROVAL_STATUS ( 'not_yet_approved' ) ;
#132 = AXIS2_PLACEMENT_3D ( 'NONE', #42, #173, #255 ) ;
#133 = CIRCLE ( 'NONE', #132, 197.3005805666935260 ) ;
#134 = DIRECTION ( 'NONE',  ( -0.0000000000000000000, -1.000000000000000000, -0.0000000000000000000 ) ) ;
#135 = EDGE_LOOP ( 'NONE', ( #112, #107, #105, #103 ) ) ;
#136 = CARTESIAN_POINT ( 'NONE',  ( -2.862293735361731706E-14, 113.7958798653389891, 0.0000000000000000000 ) ) ;
#137 = AXIS2_PLACEMENT_3D ( 'NONE', #106, #199, #273 ) ;
#138 = CC_DESIGN_SECURITY_CLASSIFICATION ( #207, ( #102 ) ) ;
#139 = EDGE_LOOP ( 'NONE', ( #120, #117, #115 ) ) ;
#140 = CARTESIAN_POINT ( 'NONE',  ( 7.017226159114335349E-15, 0.0000000000000000000, 57.30000000000000426 ) ) ;
#141 = ORIENTED_EDGE ( 'NONE', *, *, #43, .T. ) ;
#142 = DIRECTION ( 'NONE',  ( -0.0000000000000000000, -1.000000000000000000, -0.0000000000000000000 ) ) ;
#143 = CC_DESIGN_PERSON_AND_ORGANIZATION_ASSIGNMENT ( #210, #281, ( #35 ) ) ;
#144 = VERTEX_POINT ( 'NONE', #136 ) ;
#145 = DIRECTION ( 'NONE',  ( -1.224646799147353207E-16, 0.0000000000000000000, -1.000000000000000000 ) ) ;
#146 = CIRCLE ( 'NONE', #137, 69.99999999999998579 ) ;
#147 = AXIS2_PLACEMENT_3D ( 'NONE', #224, #289, #77 ) ;
#148 = TOROIDAL_SURFACE ( 'NONE', #147, -1.946292200326171118, 197.3005805666935260 ) ;
#149 = ORIENTED_EDGE ( 'NONE', *, *, #203, .F. ) ;
#150 = DIRECTION ( 'NONE',  ( 0.0000000000000000000, 0.0000000000000000000, -1.000000000000000000 ) ) ;
#151 = ORIENTED_EDGE ( 'NONE', *, *, #228, .F. ) ;
#152 = ORIENTED_EDGE ( 'NONE', *, *, #211, .T. ) ;
#153 = VECTOR ( 'NONE', #271, 1000.000000000000000 ) ;
#154 = AXIS2_PLACEMENT_3D ( 'NONE', #303, #104, #223 ) ;
#155 = ORIENTED_EDGE ( 'NONE', *, *, #108, .T. ) ;
#156 = VERTEX_POINT ( 'NONE', #239 ) ;
#157 = EDGE_CURVE ( 'NONE', #156, #188, #165, .T. ) ;
#158 = COORDINATED_UNIVERSAL_TIME_OFFSET ( 3, 0, .AHEAD. ) ;
#159 = VERTEX_POINT ( 'NONE', #288 ) ;
#160 = PRODUCT_RELATED_PRODUCT_CATEGORY ( 'detail', '', ( #35 ) ) ;
#161 = COORDINATED_UNIVERSAL_TIME_OFFSET ( 3, 0, .AHEAD. ) ;
#162 = LOCAL_TIME ( 14, 41, 9.000000000000000000, #161 ) ;
#163 = DATE_AND_TIME ( #33, #34 ) ;
#164 = EDGE_CURVE ( 'NONE', #167, #180, #75, .T. ) ;
#165 = CIRCLE ( 'NONE', #154, 57.30000000000000426 ) ;
#166 = VECTOR ( 'NONE', #14, 1000.000000000000000 ) ;
#167 = VERTEX_POINT ( 'NONE', #40 ) ;
#168 = LINE ( 'NONE', #253, #166 ) ;
#169 = EDGE_LOOP ( 'NONE', ( #151, #152, #155 ) ) ;
#170 = CARTESIAN_POINT ( 'NONE',  ( 8.572527594031471415E-15, 101.0958798653390005, 69.99999999999998579 ) ) ;
#171 = AXIS2_PLACEMENT_3D ( 'NONE', #196, #268, #38 ) ;
#172 = VERTEX_POINT ( 'NONE', #170 ) ;
#173 = DIRECTION ( 'NONE',  ( -1.000000000000000000, 0.0000000000000000000, 0.0000000000000000000 ) ) ;
#174 = VERTEX_POINT ( 'NONE', #254 ) ;
#175 = DIRECTION ( 'NONE',  ( -0.0000000000000000000, -1.000000000000000000, -0.0000000000000000000 ) ) ;
#176 = EDGE_LOOP ( 'NONE', ( #74, #64, #59, #41 ) ) ;
#177 = CYLINDRICAL_SURFACE ( 'NONE', #72, 69.99999999999998579 ) ;
#178 = AXIS2_PLACEMENT_3D ( 'NONE', #222, #287, #73 ) ;
#179 = ORGANIZATION ( 'BELÝRTÝLMEMÝÞ', 'BELÝRTÝLMEMÝÞ', '' ) ;
#180 = VERTEX_POINT ( 'NONE', #16 ) ;
#181 = DIRECTION ( 'NONE',  ( 0.0000000000000000000, -1.000000000000000000, -0.0000000000000000000 ) ) ;
#182 = EDGE_LOOP ( 'NONE', ( #78, #76 ) ) ;
#183 = EDGE_LOOP ( 'NONE', ( #49, #44 ) ) ;
#184 = CIRCLE ( 'NONE', #171, 57.30000000000001847 ) ;
#185 = EDGE_LOOP ( 'NONE', ( #82, #80, #57, #53 ) ) ;
#186 = PERSON_AND_ORGANIZATION ( #299, #179 ) ;
#187 = APPROVAL ( #264, 'BELÝRTÝLMEMÝÞ' ) ;
#188 = VERTEX_POINT ( 'NONE', #140 ) ;
#189 = PERSON_AND_ORGANIZATION ( #299, #179 ) ;
#190 = PERSON_AND_ORGANIZATION_ROLE ( 'classification_officer' ) ;
#191 = AXIS2_PLACEMENT_3D ( 'NONE', #204, #134, #237 ) ;
#192 = DESIGN_CONTEXT ( 'detailed design', #270, 'design' ) ;
#193 = CIRCLE ( 'NONE', #191, 57.30000000000000426 ) ;
#194 = AXIS2_PLACEMENT_3D ( 'NONE', #12, #10, #209 ) ;
#195 = CIRCLE ( 'NONE', #194, 209.9999999999999716 ) ;
#196 = CARTESIAN_POINT ( 'NONE',  ( 0.0000000000000000000, 92.00000000000000000, 0.0000000000000000000 ) ) ;
#197 = ADVANCED_FACE ( 'NONE', ( #240 ), #148, .F. ) ;
#198 = CARTESIAN_POINT ( 'NONE',  ( 0.0000000000000000000, 0.0000000000000000000, -69.99999999999998579 ) ) ;
#199 = DIRECTION ( 'NONE',  ( -0.0000000000000000000, -1.000000000000000000, -0.0000000000000000000 ) ) ;
#200 = AXIS2_PLACEMENT_3D ( 'NONE', #56, #52, #2 ) ;
#201 = DIRECTION ( 'NONE',  ( -1.224646799147353207E-16, 0.0000000000000000000, -1.000000000000000000 ) ) ;
#202 = CARTESIAN_POINT ( 'NONE',  ( 8.572527594031471415E-15, 0.0000000000000000000, 69.99999999999998579 ) ) ;
#203 = EDGE_CURVE ( 'NONE', #172, #167, #146, .T. ) ;
#204 = CARTESIAN_POINT ( 'NONE',  ( 0.0000000000000000000, 0.0000000000000000000, 0.0000000000000000000 ) ) ;
#205 = FACE_BOUND ( 'NONE', #182, .T. ) ;
#206 = CIRCLE ( 'NONE', #200, 57.30000000000001847 ) ;
#207 = SECURITY_CLASSIFICATION ( '', '', #283 ) ;
#208 = CARTESIAN_POINT ( 'NONE',  ( 0.0000000000000000000, -96.19510076637990892, 0.0000000000000000000 ) ) ;
#209 = DIRECTION ( 'NONE',  ( 0.0000000000000000000, 0.0000000000000000000, 1.000000000000000000 ) ) ;
#210 = PERSON_AND_ORGANIZATION ( #299, #179 ) ;
#211 = EDGE_CURVE ( 'NONE', #26, #174, #133, .T. ) ;
#212 = AXIS2_PLACEMENT_3D ( 'NONE', #3, #69, #63 ) ;
#213 = CALENDAR_DATE ( 2019, 16, 12 ) ;
#214 = PERSON_AND_ORGANIZATION_ROLE ( 'design_supplier' ) ;
#215 = DATE_AND_TIME ( #96, #86 ) ;
#216 = AXIS2_PLACEMENT_3D ( 'NONE', #20, #17, #15 ) ;
#217 = CIRCLE ( 'NONE', #212, 69.99999999999998579 ) ;
#218 = EDGE_CURVE ( 'NONE', #159, #180, #129, .T. ) ;
#219 = APPROVAL ( #131, 'BELÝRTÝLMEMÝÞ' ) ;
#220 = CLOSED_SHELL ( 'NONE', ( #197, #306, #290, #99, #19, #294, #272, #300, #267 ) ) ;
#221 = LOCAL_TIME ( 14, 41, 9.000000000000000000, #158 ) ;
#222 = CARTESIAN_POINT ( 'NONE',  ( 0.0000000000000000000, 0.0000000000000000000, 0.0000000000000000000 ) ) ;
#223 = DIRECTION ( 'NONE',  ( 0.0000000000000000000, 0.0000000000000000000, -1.000000000000000000 ) ) ;
#224 = CARTESIAN_POINT ( 'NONE',  ( 0.0000000000000000000, -96.19510076637990892, 0.0000000000000000000 ) ) ;
#225 = EDGE_CURVE ( 'NONE', #180, #159, #127, .T. ) ;
#226 = DIRECTION ( 'NONE',  ( 0.0000000000000000000, 0.0000000000000000000, -1.000000000000000000 ) ) ;
#227 = CARTESIAN_POINT ( 'NONE',  ( 0.0000000000000000000, -96.19510076637990892, 0.0000000000000000000 ) ) ;
#228 = EDGE_CURVE ( 'NONE', #26, #30, #111, .T. ) ;
#229 = DIRECTION ( 'NONE',  ( -0.0000000000000000000, -1.000000000000000000, -0.0000000000000000000 ) ) ;
#230 = DIRECTION ( 'NONE',  ( 0.0000000000000000000, 0.0000000000000000000, -1.000000000000000000 ) ) ;
#231 =( NAMED_UNIT ( * ) SI_UNIT ( $, .STERADIAN. ) SOLID_ANGLE_UNIT ( ) );
#232 = MECHANICAL_CONTEXT ( 'NONE', #261, 'mechanical' ) ;
#233 = PERSON_AND_ORGANIZATION ( #299, #179 ) ;
#234 = PERSON_AND_ORGANIZATION ( #299, #179 ) ;
#235 = APPROVAL_ROLE ( '' ) ;
#236 = CC_DESIGN_DATE_AND_TIME_ASSIGNMENT ( #282, #65, ( #70 ) ) ;
#237 = DIRECTION ( 'NONE',  ( 0.0000000000000000000, 0.0000000000000000000, -1.000000000000000000 ) ) ;
#238 = APPROVAL_PERSON_ORGANIZATION ( #9, #219, #235 ) ;
#239 = CARTESIAN_POINT ( 'NONE',  ( 0.0000000000000000000, 0.0000000000000000000, -57.30000000000000426 ) ) ;
#240 = FACE_OUTER_BOUND ( 'NONE', #28, .T. ) ;
#241 = DIRECTION ( 'NONE',  ( 0.0000000000000000000, 0.0000000000000000000, -1.000000000000000000 ) ) ;
#242 = FACE_OUTER_BOUND ( 'NONE', #169, .T. ) ;
#243 = FACE_OUTER_BOUND ( 'NONE', #135, .T. ) ;
#244 = FACE_OUTER_BOUND ( 'NONE', #139, .T. ) ;
#245 =( NAMED_UNIT ( * ) PLANE_ANGLE_UNIT ( ) SI_UNIT ( $, .RADIAN. ) );
#246 = CARTESIAN_POINT ( 'NONE',  ( 0.0000000000000000000, 0.0000000000000000000, 0.0000000000000000000 ) ) ;
#247 = CALENDAR_DATE ( 2019, 16, 12 ) ;
#248 = CALENDAR_DATE ( 2019, 16, 12 ) ;
#249 = LOCAL_TIME ( 14, 41, 9.000000000000000000, #93 ) ;
#250 = DATE_TIME_ROLE ( 'classification_date' ) ;
#251 = EDGE_CURVE ( 'NONE', #174, #156, #274, .T. ) ;
#252 = EDGE_CURVE ( 'NONE', #144, #172, #98, .T. ) ;
#253 = CARTESIAN_POINT ( 'NONE',  ( 7.017226159114335349E-15, 0.0000000000000000000, 57.30000000000001137 ) ) ;
#254 = CARTESIAN_POINT ( 'NONE',  ( 0.0000000000000000000, 92.00000000000000000, -57.30000000000001847 ) ) ;
#255 = DIRECTION ( 'NONE',  ( 0.0000000000000000000, 0.0000000000000000000, 1.000000000000000000 ) ) ;
#256 = CARTESIAN_POINT ( 'NONE',  ( -2.383520513334904677E-16, -96.19510076637990892, -1.946292200326171118 ) ) ;
#257 = CC_DESIGN_DATE_AND_TIME_ASSIGNMENT ( #163, #250, ( #207 ) ) ;
#258 = CARTESIAN_POINT ( 'NONE',  ( 0.0000000000000000000, 0.0000000000000000000, 0.0000000000000000000 ) ) ;
#259 = DIRECTION ( 'NONE',  ( 0.0000000000000000000, 0.0000000000000000000, -1.000000000000000000 ) ) ;
#260 = ADVANCED_BREP_SHAPE_REPRESENTATION ( 'End Cap SDR11_001 117 0140 0140', ( #27, #7 ), #11 ) ;
#261 = APPLICATION_CONTEXT ( 'configuration controlled 3d designs of mechanical parts and assemblies' ) ;
#262 =( LENGTH_UNIT ( ) NAMED_UNIT ( * ) SI_UNIT ( .MILLI., .METRE. ) );
#263 = APPROVAL_STATUS ( 'not_yet_approved' ) ;
#264 = APPROVAL_STATUS ( 'not_yet_approved' ) ;
#265 = COORDINATED_UNIVERSAL_TIME_OFFSET ( 3, 0, .AHEAD. ) ;
#266 = CC_DESIGN_APPROVAL ( #219, ( #207 ) ) ;
#267 = ADVANCED_FACE ( 'NONE', ( #242 ), #92, .F. ) ;
#268 = DIRECTION ( 'NONE',  ( -0.0000000000000000000, -1.000000000000000000, -0.0000000000000000000 ) ) ;
#269 = EDGE_CURVE ( 'NONE', #172, #159, #114, .T. ) ;
#270 = APPLICATION_CONTEXT ( 'configuration controlled 3d designs of mechanical parts and assemblies' ) ;
#271 = DIRECTION ( 'NONE',  ( -0.0000000000000000000, -1.000000000000000000, -0.0000000000000000000 ) ) ;
#272 = ADVANCED_FACE ( 'NONE', ( #46 ), #177, .T. ) ;
#273 = DIRECTION ( 'NONE',  ( 0.0000000000000000000, 0.0000000000000000000, -1.000000000000000000 ) ) ;
#274 = LINE ( 'NONE', #45, #101 ) ;
#275 = CC_DESIGN_PERSON_AND_ORGANIZATION_ASSIGNMENT ( #233, #295, ( #70 ) ) ;
#276 = DIRECTION ( 'NONE',  ( -0.0000000000000000000, -1.000000000000000000, -0.0000000000000000000 ) ) ;
#277 = PLANE ( 'NONE',  #71 ) ;
#278 = APPROVAL_PERSON_ORGANIZATION ( #189, #187, #32 ) ;
#279 = DIRECTION ( 'NONE',  ( -0.0000000000000000000, -1.000000000000000000, -0.0000000000000000000 ) ) ;
#280 = APPLICATION_PROTOCOL_DEFINITION ( 'international standard', 'config_control_design', 1994, #261 ) ;
#281 = PERSON_AND_ORGANIZATION_ROLE ( 'design_owner' ) ;
#282 = DATE_AND_TIME ( #213, #249 ) ;
#283 = SECURITY_CLASSIFICATION_LEVEL ( 'unclassified' ) ;
#284 = APPROVAL_DATE_TIME ( #215, #219 ) ;
#285 = UNCERTAINTY_MEASURE_WITH_UNIT (LENGTH_MEASURE( 1.000000000000000082E-05 ), #262, 'distance_accuracy_value', 'NONE');
#286 = PRODUCT_DEFINITION_SHAPE ( 'NONE', 'NONE',  #70 ) ;
#287 = DIRECTION ( 'NONE',  ( -0.0000000000000000000, -1.000000000000000000, -0.0000000000000000000 ) ) ;
#288 = CARTESIAN_POINT ( 'NONE',  ( 8.572527594031472993E-15, 0.0000000000000000000, 70.00000000000000000 ) ) ;
#289 = DIRECTION ( 'NONE',  ( -0.0000000000000000000, -1.000000000000000000, -0.0000000000000000000 ) ) ;
#290 = ADVANCED_FACE ( 'NONE', ( #243 ), #305, .T. ) ;
#291 = CARTESIAN_POINT ( 'NONE',  ( -2.383520513334904677E-16, -96.19510076637990892, -1.946292200326171118 ) ) ;
#292 = DIRECTION ( 'NONE',  ( -0.0000000000000000000, -1.000000000000000000, -0.0000000000000000000 ) ) ;
#293 = DIRECTION ( 'NONE',  ( 0.0000000000000000000, 0.0000000000000000000, -1.000000000000000000 ) ) ;
#294 = ADVANCED_FACE ( 'NONE', ( #83, #205 ), #277, .T. ) ;
#295 = PERSON_AND_ORGANIZATION_ROLE ( 'creator' ) ;
#296 = CC_DESIGN_PERSON_AND_ORGANIZATION_ASSIGNMENT ( #66, #190, ( #207 ) ) ;
#297 = PERSON_AND_ORGANIZATION_ROLE ( 'creator' ) ;
#298 = COORDINATED_UNIVERSAL_TIME_OFFSET ( 3, 0, .AHEAD. ) ;
#299 = PERSON ( 'BELÝRTÝLMEMÝÞ', 'BELÝRTÝLMEMÝÞ', 'BELÝRTÝLMEMÝÞ', ('BELÝRTÝLMEMÝÞ'), ('BELÝRTÝLMEMÝÞ'), ('BELÝRTÝLMEMÝÞ') ) ;
#300 = ADVANCED_FACE ( 'NONE', ( #25 ), #61, .T. ) ;
#301 = FACE_OUTER_BOUND ( 'NONE', #124, .T. ) ;
#302 = CC_DESIGN_APPROVAL ( #187, ( #102 ) ) ;
#303 = CARTESIAN_POINT ( 'NONE',  ( 0.0000000000000000000, 0.0000000000000000000, 0.0000000000000000000 ) ) ;
#304 = CARTESIAN_POINT ( 'NONE',  ( 0.0000000000000000000, 0.0000000000000000000, 0.0000000000000000000 ) ) ;
#305 = CYLINDRICAL_SURFACE ( 'NONE', #68, 69.99999999999998579 ) ;
#306 = ADVANCED_FACE ( 'NONE', ( #244 ), #48, .T. ) ;
#307 = CARTESIAN_POINT ( 'NONE',  ( 0.0000000000000000000, -96.19510076637990892, 0.0000000000000000000 ) ) ;
ENDSEC;
END-ISO-10303-21;
